Tresillos a la wooten

Según la Wikipedia (¡Y según la teoría de la música, también!) un tresillo es un grupo de tres notas que se tocan en el tiempo que deberían tocarse sólo dos.

El tresillo es considerado como un grupo de valor especial por reducción dentro del compás porque entran tres sonidos en el tiempo de dos y, entonces sus figuras son necesariamente más rápidas. Por ejemplo, en un tresillo de corcheas, cada una de las tres debe tocarse con mayor velocidad que si en ese mismo tiempo hubiera solamente dos. Y para hacerlo de la manera técnicamente correcta, el énfasis recae sobre el primer sonido de cada tresillo, en este caso sobre la primera corchea. Al escribir música, un tresillo por lo general se anota con una barra con el número 3 sobre las tres notas.

La banda "Bela Fleck & The Flecktones" cuenta con un bajista especialmente bueno es esto y que ya les he mencionado: Victor Wooten. Aquí les dejo la tablatura de una parte de “Me and My Bass Guitar” de este famoso bajista. Sería una buena idea tocarla encima del CD y no dejes de tocar con todos los dedos de la mano derecha. Él termina la introducción con un tap rápido en la cuerda Sol (G) en el traste 23 antes de pasar al  groove principal. Para hacer ese tap, se pueden usar los dedos índice o pulgar.

      1  e  &  a  2  e  &  a  3  e  &  a  4  e  &  a
G--------------------------x--x-----x-----x-----x--x--|
D--------------------------x--x-----x-----x-----x--x--|
A-------INICIO==>-----------x--x-----x-----x-----x--x--|
E--------------------------x--x-----x-----x-----x--x--|
    "ah"        "uh"

      1  e  &  a  2  e  &  a  3  e  &  a  4  e  &  a
G-----x-----------x--------x--x-----x-----x-----x-----|
D-----x-----------x--------x--x-----x-----x-----x-----|
A-----9-----------x--------x--x-----x-----x-----10----|
E-----x-----------x--------x--x-----x-----x-----x-----|
      S                                         S

      1  e  &  a  2  e  &  a  3  e  &  a  4  e  &  a
G-----x-----------x--------x--x-----x-----x-----x-----|
D-----x-----------x--------x--x-----x-----x-----x-----|
A-----x-----------x--------x--x-----x-----x-----x-----|
E-----x-----------x--------x--x-----x-----x-----x-----|

      1  e  &  a  2  e  &  a  3  e  &  a  4  e  &  a
G-----x-----------x--------x--x-----------x-----x-----|
D-----x-----------x--------x--x-----------x-----x-----|
A-----9-----------x--------x--x-----------x-----10----|
E-----x-----------x--------x--x-----------x-----x-----|
      S                                         S

      1  e  &  a  2  e  &  a  3  e  &  a  4  e  &  a
G-----x-----------x-----x-----x-----x-----x-----x-----|
D-----x-----------x------x----x-----x-----x-----x-----|
A-----x-----------x-------x---x-----x-----x-----x-----|
E-----x-----------x--------x--x-----x-----x-----x-----|

      1  e  &  a  2  e  &  a  3  e  &  a  4  e  &  a
G-----x-----------x--------x--x-----------x-----x-----|
D-----x-----------x--------x--x-----------x-----x-----|
A-----9-----------x--------x--x-----------x-----10----|
E-----x-----------x--------x--x-----------x-----x-----|
      S                                         S

      1  e  &  a  2  e  &  a  3  e  &  a  4  e  &  a
G-----x-----------x--------x--x-----x-----x-----x-----|
D-----x-----------x--------x--x-----x-----x-----x-----|
A-----x-----------x--------x--x-----x-----x-----11----|
E-----x-----------x--------x--x-----x-----x-----x-----|
                                                                 S

      1  e  &  a  2  e  &  a  3  e  &  a  4  e  &  a
G-----x-----x-----x--------x--x-----x-----x-----x-----|
D-----x-----x-----x--------x--x-----x-----x-----x-----|
A-----x-----x-----x--------x--x-----x-----x-----12~~~~|
E-----x-----x-----x--------x--x-----x-----x-----x-----|
                                                                 S~~~~~~

      1  e  &  a  2  e  &  a  3  e  &  a  4  e  &  a
G-----------x-----x-----x-----------x-----x----t23----|
D-----------x-----x-----x-----------x-----x-----------|
A~~~~~~-----x-----x-----13~~~~~-----x-----x-----------|  Al groove principal
E-----------x-----x-----x-----------x-----x-----------|
~~~~~~~                           S~~~~~~                                 R                                


GROOVE principal y VERSO. Lleno de tresillos!

GROOVE principal sin tapping

      1  e  &  a  2  e  &  a  3  e  &  a  4  e  &  a 
G-----------x--------x--------------x-----------------||
D-------------h6--x----h7--x--------------------------||
A----------------------------h7--x--------x-h5--------||
E----h7--x----------------------------h5-------h6~~~--||
      L  R  P  L  R  P  L  R  L  R  P  L  R  L  L  

 
      1  e  &  a  2  e  &  a  3  e  &  a  4  e  &  a 
G-----------------------------------------------------||
D-------------h6--x--x-h7--x--------------------------||
A----------------------------h7--x--x-----x-h5--------||
E----h7--x--x-------------------------h5-------h6~~~--||
      L  R  R  L  R  R  L  R  L  R  R  L  R  L  L  

Cualquiera de las variantes sirve. Practícalas lentamente al principio para ir desarrollando velocidad sin errores.

 
blog comments powered by Disqus

Recomendados