Desarrolando fuerza y velocidad

Desde luego, cuanto más toque un guitarrista su instrumento, más fuerza y más velocidad alcanzará. Sin embargo, hay ciertos ejercicios que pueden acelerar el proceso de adquirir estas dos cualidades.

¿Para qué es necesaria la fuerza al tocar la guitarra?

Cuando pienso en esto, se me ocurren varias cosas. Tres como mínimo:

•  Necesito fuerza para sostenerla. Sí, algunas guitarras (como la Gibson Les Paul, cuya tabla o "caja" es de caoba maciza) pueden ser MUY pesadas.

•  Necesito fuerza para tocar con dinamismo y con un volumen adecuado cuando ciertos pasajes así lo requieren.

•  Necesito fuerza para poder ejecutar ciertas técnicas de la mano izquierda, tales como el “hammer o” y el “hammer off”.

¿Para qué es necesaria la velocidad al tocar la guitarra?

En este caso, también puedo recordar varias utilidades del hecho de poder tocar la guitarra con la velocidad adecuada:

•  Justamente, para tocar cada tema a la velocidad para la que fue creado. ¡O más rápido, si la ocasión lo requiere!

•  Para tener la rapidez necesaria en la digitación (de ambas manos) de modo de poder marcar la diferencia de velocidad entre un pasaje lento y uno rápido. ¿Alguna vez escuchaste tocar a un principiante? Tocan todo más o menos a la misma velocidad. ¿Y cuál es esa velocidad? ¡La velocidad máxima que sus dedos les permiten! (Que, de todos modos suele ser bastante lenta, al principio...)

•  Para poder tocar pasajes rápidos y complejos sin que se produzcan ruidos extraños y sin perder ninguna nota. De otro modo, sonaría lo que en argentina llamamos “chamuyo” o “verso”: tocamos “como si supiéramos”, pero en realidad estamos haciendo cualquier cosa. Y se nota.

Ejercicio de fuerza para fortalecer el dedo meñique

¿Notaste que el meñique parece ser el más débil de los dedos? Y lo es. Por eso, este se trata de un ejercicio bastante difícil. Pero no imposible con un poco de práctica. Sin embargo, no hay que exagerar: es necesario detenerse cada tanto par evitar un dolor intenso o calambres en el dedo o el “canto” mano, del lado del meñique. El primer sonido en cada una de las cuerdas debe tocarse con el dedo anular y el siguiente con el meñique:

e-------------------------------------6--7------
B-------------------------------6--7------------
G------------------------6--7-------------------
D------------------6--7-------------------------
A-----------6--7--------------------------------
E----6--7---------------------------------------

e-7---6------------------------------------------
B---------7---6----------------------------------
G-----------------7---6--------------------------
D-------------------------7---6------------------
A---------------------------------7---6----------
E----------------------------------------7---6---

Ejercicios de Velocidad (Escala menor pentatónica en tablatura)

Ejemplo 1 ( La Do Re Mi Sol)

La  Do Re MiSol La DoRe  Mi SolLa Do
 1  4  1  3  1  3  1  3  1  4  1  4
-------------------------------5--8---------------
-------------------------5--8---------------------
-------------------5--7---------------------------
-------------5--7---------------------------------
-------5--7---------------------------------------
-5--8---------------------------------------------

Algunos guitarristas la ejecutan a partir del traste número diecisiete.

Ejemplo 2 (Do Re Mi Sol La)

Do  Re Mi Sol La  Do Re Mi Sol La Do  Re
 2  4   1  4   1  4   1  3  2  4   2  4
-----------------------------------8--10----------
----------------------------8--10-----------------
----------------------7--9------------------------
---------------7--10------------------------------
--------7--10-------------------------------------
-8--10--------------------------------------------

Algunos guitarristas la ejecutan a partir del traste número veinte.

blog comments powered by Disqus

Recomendados