Bases rítmicas

En esta sección de las lecciones sobre el bajo y el ritmo voy a sugerir algunas bases para que practiques y puedas desarrollar tu sentido del ritmo. Para eso, voy a proveer algunas bases rítmicas comunes que se utilizan en bajo. Aquí van algunas bien conocidas:

1) Perry Mason de Ozzy Osbourne
g----------------------------------
d---------------------0------------
a-3---1-3----1-3-----4-3-1-0-------
e---3-------3----------------------

2) Another One Bites the Dust – Queen - From the album: The Game (1980)
G-|-----------------------------------|
D-|-----------------------------------|
A-|-----------------------------------| x2
E-|---5-3-0---0--0----0-0-0---3-0-5---|

G-|-------------------------------|
D-|-------------------------------|
A-|-------------------------------| x5
E-|---0---0--0----0-0-0---3-0-5---|

G-|------------------------|
D-|--------------0--5------|
A-|---3-3---3-3------------|
E-|--------------------3---|

G-|-----------------------|
D-|-----------------------|
A-|---3-3---3-3---5-------|
E-|-------------------3---|

G-|------------------------|
D-|--------------0--5------|
A-|---3-3---3-3------------|
E-|--------------------3---|

G-|-------------------------|
D-|-------------------------|
A-|---0-0---0-0--5----------|
E-|------------------5--3---|

G-|-------------------------------|
D-|-------------------------------|
A-|-------------------------------| x3
E-|---0---0--0----0-0-0---3-0-5---|

G-|----------------------------------------|
D-|----------------------------------------|
A-|----------------------------------------|
E-|---3---3-3-3---5--5--5---3------5---3---|

G-|-------------------------------|
D-|-------------------------------|
A-|-------------------------------| x4
E-|---0---0--0----0-0-0---3-0-5---|

G-|------------------------|
D-|--------------0--5------|
A-|---3-3---3-3------------|
E-|--------------------3---|

G-|-----------------------|
D-|-----------------------|
A-|---3-3---3-3--5--------|
E-|-------------------3---|

G-|------------------------|
D-|--------------0--5------|
A-|---3-3---3-3------------|
E-|--------------------3---|

G-|--------------------------|
D-|--------------------------|
A-|---0-0---0-0--5-----------|
E-|------------------5---3---|

G-|-------------------------------|
D-|-------------------------------|
A-|-------------------------------| x2
E-|---0---0--0----0-0-0---3-0-5---|

G-|-----------------------------------|
D-|-----------------------------------|
A-|-----------------------------------|
E-|---5-3-0---0--0----0-0-0---3-0-5---|

G-|-----------------------------|
D-|-----------------------------|
A-|---0-0---0-0--5--------------|
E-|------------------5---3--0---|

G-|-------------------------|
D-|---x----x----x----x--x---|
A-|---x----x----x----x--x---| x? Esta parte va con Slapping de la mano derecha contra las cuerdas muteadas.
E-|---x----x----x----x--x---|

G-|-----------------------------------|
D-|-----------------------------------|
A-|-----------------------------------|
E-|---5-3-0---0--0----0-0-0---3-0-5---|

G-|-------------------------------|
D-|-------------------------------|
A-|-------------------------------| x3
E-|---0---0--0----0-0-0---3-0-5---|

G-|-----------------------------------|
D-|-----------------------------------|
A-|-----------------------------------|
E-|---5-3-0---0--0----0-0-0---3-0-5---|

G-|------------------------|
D-|--------------0--5------|
A-|---3-3---3-3------------|
E-|--------------------3---|

G-|-----------------------|
D-|-----------------------|
A-|---3-3---3-3--5--------|
E-|-------------------3---|

G-|------------------------|
D-|--------------0--5------|
A-|---3-3---3-3------------|
E-|--------------------3---|

G-|-----------------------------|
D-|-----------------------------|
A-|-----------------------------|
E-|---3-3---3-3--5------5---3---|

G-|-------------------------------|
D-|-------------------------------|
A-|-------------------------------| x2
E-|---0---0--0----0-0-0---3-0-5---|

G-|-----------------------------------|
D-|-----------------------------------|
A-|-----------------------------------|
E-|---5-3-0---0--0----0-0-0---3-0-5---|

G-|--------------------------|
D-|--------------------------|
A-|---0-0---0-0--5-----------|
E-|------------------5---3---|

G-|-------------------------------|
D-|-------------------------------|
A-|-------------------------------|
E-|---0---0--0----0-0-0---3-0-5---|

G-|-----------------------------------|
D-|-----------------------------------|
A-|-----------------------------------|
E-|---5-3-0---0--0----0-0-0---3-0-5---|

G-|------------------------|
D-|--------------0--5------|
A-|---3-3---3-3------------|
E-|--------------------3---|

G-|-----------------------|
D-|-----------------------|
A-|---3-3---3-3--5--------|
E-|-------------------3---|

G-|------------------------|
D-|--------------0--5------|
A-|---3-3---3-3------------|
E-|--------------------3---|

G-|------------------|
D-|------------------|
A-|---0-0---0-0--5---|
E-|------------------|

G-|-----------||
D-|-----------||
A-|-----------||
E-|---5---3---||

3) Red Hot Chili Peppers - Give it Hawai – Para bajo de 4 cuerdas, SOL- RE- LA - Mi

Intro
|---------------|
|---------------|
|---------------|
|-5/17\5-5/17\5-|

Verso
|-------------------|
|-------------------|
|--------10---------|
|-5x-5/12---57-57-5-|

Coro
|-------|
|-------|
|-------|
|-2/5\0-|

Solo de guitarra
|-------------------|
|-------------------|
|--------10-03-03-0-|
|-0x-0/12-----------|

Variación del final, se toca rápidamente
|-----------------------------|
|-----------------------------|
|-----------------------------|
|-0-12-0-10-0-8-0-6-0-4-0-3-0-|

Verso 2
|--------12---------|
|----3/14-----------|
|-0x--------03-03-0-|
|-------------------|

Variación 1
|-------12-14--12-9-12-9-|
|---3/14-----14----------|
|-0x---------------------|
|------------------------|

Variación 2
|-------12-----------|
|---3/14---7--7------|
|-0x-------------6-5-|
|-----------5--5-----|

Variación 3
|-------12--------|
|---3/14----------|
|-0x------3--3----|
|----------5--5-3-|

Variación 4
|-------12-------|
|---3/14----3----|
|-0x------33-5-3-|
|----------------|

Final, se toca rápidamente
|------------------------------------------------|
|------------------------------------------------|
|------------------------------------------------|
|-0-5-0-7-0-8-0-9-0-12-0/17-17-17-17-17-17-17-17-|

El ritmo es fundamental en el bajo. Practica tus habilidades rítmicas diariamente, mezclar la práctica del ritmo junto con las demás: Escalas, arpegios, canciones y diversas técnicas. Recuerda que el ritmo es una de tus mayores responsabilidades como bajista: Si el ritmo es pobre, trabajar en cualquier otra cosa será en vano.

 
blog comments powered by Disqus

Recomendados