Arpegios de guitarra

Muchos músicos hablan de los arpegios. Pero pocos saben REALMENTE qué son y cómo utilizarlos par lucirse mucho con poco esfuerzo en el mundillo de los solos de guitarra.

Básicamente, un arpegio es una sucesión de notas que, si se tocaran todas al mismo tiempo, bien podrían formar un acorde. Habiendo dicho esto, es necesario destacar que, entre nota y nota, debe haber un intervalo de tiempo suficiente para que:

•  El arpegio se perciba al oído como una sucesión melódica y no como un acorde y para esto es necesario no tocarlo demasiado vertiginosamente.

•  El arpegio suene “dulce” y melódico gracias a la uniformidad de tal intervalo de tiempo entre las notas que lo componen.

Estos son algunos ejemplos en tablatura de arpegios sencillos, y loso coloco aquí para que veas más claramente de qué se trata:

RE mayor

E--2----------
B----3--------
G------2------
D--------0----
A-------------
E-------------

LA menor

E--0----------
B----1--------
G------2------
D--------2----
A----------0--
E-------------

SI menor 7

E--2---------
B----3-------
G------2-----
D--------4---
A----------2-
E------------

MI mayor

E---------4--
B-------5----
G-----4------
D---6--------
A-7----------
E------------

MI menor 7/11 (Sí, todas las cuerdas al aire)

E-----------0--
B---------0----
G-------0------
D-----0--------
A---0----------
E-0------------

LA menor 13

E-------------7-
B---------5-6---
G-------5-------
D-----5---------
A---5-----------
E-5-------------

Son sencillos. Es cierto. Pero eso suele presentar cierto peligro para los guitarristas que son fanáticos de la velocidad: Podrían tocarlos con un simple golpe de púa hacia abajo a la velocidad de la luz. Pero la gracia de tocar bien los arpegios es otra: Se trata de tocarlos lentamente, a propósito, disfrutando de articular perfectamente cada nota a tempo.

¡A pesar de esta supuesta lentitud, la tonalidad (Y a veces el acorde...) se formarán perfectamente en la mente del oyente, haciendo que todo esto tenga sentido!

Hasta cualquier momento.

blog comments powered by Disqus

Recomendados